ISO-10303-21;
HEADER;
FILE_DESCRIPTION (( 'STEP AP203' ),
    '1' );
FILE_NAME ('QM-CAQWP-10-550-750-M.STEP',
    '2021-01-05T02:43:51',
    ( '' ),
    ( '' ),
    'SwSTEP 2.0',
    'SolidWorks 2020',
    '' );
FILE_SCHEMA (( 'CONFIG_CONTROL_DESIGN' ));
ENDSEC;

DATA;
#1 = CIRCLE ( 'NONE', #273, 12.69999999999999929 ) ;
#2 = DIRECTION ( 'NONE',  ( 1.000000000000000000, 0.000000000000000000, 0.000000000000000000 ) ) ;
#3 = ADVANCED_FACE ( 'NONE', ( #317 ), #7, .T. ) ;
#4 = DIRECTION ( 'NONE',  ( -0.000000000000000000, 0.000000000000000000, 1.000000000000000000 ) ) ;
#5 = APPROVAL_ROLE ( '' ) ;
#6 = APPROVAL_ROLE ( '' ) ;
#7 = CYLINDRICAL_SURFACE ( 'NONE', #192, 12.69999999999999929 ) ;
#8 = FACE_OUTER_BOUND ( 'NONE', #108, .T. ) ;
#9 = CARTESIAN_POINT ( 'NONE',  ( -1.614212418857619014, 0.000000000000000000, 0.000000000000000000 ) ) ;
#10 = VECTOR ( 'NONE', #286, 1000.000000000000000 ) ;
#11 = APPROVAL_PERSON_ORGANIZATION ( #56, #131, #109 ) ;
#12 = CARTESIAN_POINT ( 'NONE',  ( -3.000000000000000000, 1.555301434917138433E-15, -12.69999999999999929 ) ) ;
#13 = ORIENTED_EDGE ( 'NONE', *, *, #35, .T. ) ;
#14 = DIRECTION ( 'NONE',  ( 0.000000000000000000, 0.000000000000000000, 1.000000000000000000 ) ) ;
#15 = AXIS2_PLACEMENT_3D ( 'NONE', #91, #169, #122 ) ;
#16 = FACE_OUTER_BOUND ( 'NONE', #235, .T. ) ;
#17 = CARTESIAN_POINT ( 'NONE',  ( -1.614212418857619014, 0.000000000000000000, 12.69999999999999929 ) ) ;
#18 = EDGE_LOOP ( 'NONE', ( #68, #31 ) ) ;
#19 = CARTESIAN_POINT ( 'NONE',  ( -1.614212418857619014, 6.123233995736767268E-16, -5.000000000000000888 ) ) ;
#20 = VERTEX_POINT ( 'NONE', #242 ) ;
#21 = ORIENTED_EDGE ( 'NONE', *, *, #277, .F. ) ;
#22 = DIRECTION ( 'NONE',  ( 0.000000000000000000, 0.000000000000000000, 1.000000000000000000 ) ) ;
#23 = PERSON_AND_ORGANIZATION ( #38, #217 ) ;
#24 = AXIS2_PLACEMENT_3D ( 'NONE', #124, #325, #120 ) ;
#25 = ADVANCED_FACE ( 'NONE', ( #216 ), #295, .F. ) ;
#26 = CARTESIAN_POINT ( 'NONE',  ( 3.000000000000000000, 12.69999999999999929, 0.000000000000000000 ) ) ;
#27 = ORIENTED_EDGE ( 'NONE', *, *, #335, .F. ) ;
#28 = DIRECTION ( 'NONE',  ( 0.000000000000000000, 0.000000000000000000, 1.000000000000000000 ) ) ;
#29 = APPLICATION_CONTEXT ( 'configuration controlled 3d designs of mechanical parts and assemblies' ) ;
#30 = COORDINATED_UNIVERSAL_TIME_OFFSET ( 8, 0, .AHEAD. ) ;
#31 = ORIENTED_EDGE ( 'NONE', *, *, #139, .F. ) ;
#32 = DIRECTION ( 'NONE',  ( -1.000000000000000000, -0.000000000000000000, -0.000000000000000000 ) ) ;
#33 = LINE ( 'NONE', #190, #10 ) ;
#34 = AXIS2_PLACEMENT_3D ( 'NONE', #261, #87, #140 ) ;
#35 = EDGE_CURVE ( 'NONE', #20, #180, #33, .T. ) ;
#36 = AXIS2_PLACEMENT_3D ( 'NONE', #300, #271, #323 ) ;
#37 = ORIENTED_EDGE ( 'NONE', *, *, #97, .F. ) ;
#38 = PERSON ( 'UNSPECIFIED', 'UNSPECIFIED', 'UNSPECIFIED', ('UNSPECIFIED'), ('UNSPECIFIED'), ('UNSPECIFIED') ) ;
#39 = FACE_OUTER_BOUND ( 'NONE', #47, .T. ) ;
#40 = ADVANCED_FACE ( 'NONE', ( #291 ), #158, .T. ) ;
#41 = DIRECTION ( 'NONE',  ( -1.000000000000000000, -0.000000000000000000, -0.000000000000000000 ) ) ;
#42 = PRODUCT_DEFINITION ( 'UNKNOWN', '', #65, #105 ) ;
#43 = DIRECTION ( 'NONE',  ( -1.000000000000000000, -0.000000000000000000, -0.000000000000000000 ) ) ;
#44 = DIRECTION ( 'NONE',  ( -1.000000000000000000, -0.000000000000000000, -0.000000000000000000 ) ) ;
#45 = VERTEX_POINT ( 'NONE', #12 ) ;
#46 = CARTESIAN_POINT ( 'NONE',  ( -0.5000000000000002220, 5.000000000000000000, 0.000000000000000000 ) ) ;
#47 = EDGE_LOOP ( 'NONE', ( #279, #208 ) ) ;
#48 = CIRCLE ( 'NONE', #113, 12.69999999999999929 ) ;
#49 = PERSON_AND_ORGANIZATION_ROLE ( 'design_owner' ) ;
#50 = LOCAL_TIME ( 10, 43, 51.00000000000000000, #263 ) ;
#51 = CIRCLE ( 'NONE', #133, 12.69999999999999929 ) ;
#52 = CC_DESIGN_DATE_AND_TIME_ASSIGNMENT ( #207, #78, ( #42 ) ) ;
#53 = LOCAL_TIME ( 10, 43, 51.00000000000000000, #104 ) ;
#54 = COORDINATED_UNIVERSAL_TIME_OFFSET ( 8, 0, .AHEAD. ) ;
#55 = ORIENTED_EDGE ( 'NONE', *, *, #121, .T. ) ;
#56 = PERSON_AND_ORGANIZATION ( #38, #217 ) ;
#57 = ORIENTED_EDGE ( 'NONE', *, *, #106, .T. ) ;
#58 = CIRCLE ( 'NONE', #15, 5.000000000000000000 ) ;
#59 = DATE_AND_TIME ( #285, #50 ) ;
#60 = DIRECTION ( 'NONE',  ( 0.000000000000000000, 0.000000000000000000, 1.000000000000000000 ) ) ;
#61 = CC_DESIGN_APPROVAL ( #233, ( #65 ) ) ;
#62 = AXIS2_PLACEMENT_3D ( 'NONE', #26, #174, #4 ) ;
#63 = ORIENTED_EDGE ( 'NONE', *, *, #296, .T. ) ;
#64 = DIRECTION ( 'NONE',  ( 0.000000000000000000, 0.000000000000000000, 1.000000000000000000 ) ) ;
#65 = PRODUCT_DEFINITION_FORMATION_WITH_SPECIFIED_SOURCE ( 'ANY', '', #230, .NOT_KNOWN. ) ;
#66 = CARTESIAN_POINT ( 'NONE',  ( -1.614212418857619014, 0.000000000000000000, 0.000000000000000000 ) ) ;
#67 = MANIFOLD_SOLID_BREP ( 'Ðý×', #251 ) ;
#68 = ORIENTED_EDGE ( 'NONE', *, *, #270, .F. ) ;
#69 = PLANE ( 'NONE',  #100 ) ;
#70 = ORIENTED_EDGE ( 'NONE', *, *, #290, .F. ) ;
#71 = DIRECTION ( 'NONE',  ( -1.000000000000000000, -0.000000000000000000, -0.000000000000000000 ) ) ;
#72 = ORIENTED_EDGE ( 'NONE', *, *, #212, .F. ) ;
#73 =( LENGTH_UNIT ( ) NAMED_UNIT ( * ) SI_UNIT ( .MILLI., .METRE. ) );
#74 = VERTEX_POINT ( 'NONE', #115 ) ;
#75 = EDGE_CURVE ( 'NONE', #239, #45, #48, .T. ) ;
#76 = CALENDAR_DATE ( 2021, 5, 1 ) ;
#77 = CC_DESIGN_PERSON_AND_ORGANIZATION_ASSIGNMENT ( #83, #134, ( #65 ) ) ;
#78 = DATE_TIME_ROLE ( 'creation_date' ) ;
#79 = CIRCLE ( 'NONE', #314, 12.69999999999999929 ) ;
#80 = CARTESIAN_POINT ( 'NONE',  ( 3.000000000000000000, 0.000000000000000000, 5.000000000000001776 ) ) ;
#81 = ORIENTED_EDGE ( 'NONE', *, *, #290, .T. ) ;
#82 = SECURITY_CLASSIFICATION ( '', '', #287 ) ;
#83 = PERSON_AND_ORGANIZATION ( #38, #217 ) ;
#84 = ORIENTED_EDGE ( 'NONE', *, *, #90, .T. ) ;
#85 = CC_DESIGN_PERSON_AND_ORGANIZATION_ASSIGNMENT ( #23, #49, ( #230 ) ) ;
#86 = APPROVAL_DATE_TIME ( #111, #233 ) ;
#87 = DIRECTION ( 'NONE',  ( -1.000000000000000000, -0.000000000000000000, -0.000000000000000000 ) ) ;
#88 = VECTOR ( 'NONE', #32, 1000.000000000000000 ) ;
#89 = LINE ( 'NONE', #322, #297 ) ;
#90 = EDGE_CURVE ( 'NONE', #259, #74, #89, .T. ) ;
#91 = CARTESIAN_POINT ( 'NONE',  ( 0.5000000000000004441, 0.000000000000000000, 0.000000000000000000 ) ) ;
#92 = DIRECTION ( 'NONE',  ( -1.000000000000000000, -0.000000000000000000, -0.000000000000000000 ) ) ;
#93 = CARTESIAN_POINT ( 'NONE',  ( -1.614212418857619014, 0.000000000000000000, 5.000000000000000888 ) ) ;
#94 = ADVANCED_FACE ( 'NONE', ( #8 ), #188, .F. ) ;
#95 = DIRECTION ( 'NONE',  ( -1.000000000000000000, -0.000000000000000000, -0.000000000000000000 ) ) ;
#96 = FACE_OUTER_BOUND ( 'NONE', #135, .T. ) ;
#97 = EDGE_CURVE ( 'NONE', #198, #189, #51, .T. ) ;
#98 = DIRECTION ( 'NONE',  ( 0.000000000000000000, 0.000000000000000000, 1.000000000000000000 ) ) ;
#99 = ORIENTED_EDGE ( 'NONE', *, *, #277, .T. ) ;
#100 = AXIS2_PLACEMENT_3D ( 'NONE', #195, #301, #245 ) ;
#101 = AXIS2_PLACEMENT_3D ( 'NONE', #312, #2, #102 ) ;
#102 = DIRECTION ( 'NONE',  ( 0.000000000000000000, 0.000000000000000000, -1.000000000000000000 ) ) ;
#103 = CIRCLE ( 'NONE', #258, 5.000000000000001776 ) ;
#104 = COORDINATED_UNIVERSAL_TIME_OFFSET ( 8, 0, .AHEAD. ) ;
#105 = DESIGN_CONTEXT ( 'detailed design', #136, 'design' ) ;
#106 = EDGE_CURVE ( 'NONE', #20, #259, #302, .T. ) ;
#107 = DATE_AND_TIME ( #240, #197 ) ;
#108 = EDGE_LOOP ( 'NONE', ( #63, #13, #227, #142 ) ) ;
#109 = APPROVAL_ROLE ( '' ) ;
#110 = DIRECTION ( 'NONE',  ( 0.000000000000000000, 0.000000000000000000, 1.000000000000000000 ) ) ;
#111 = DATE_AND_TIME ( #159, #162 ) ;
#112 = CARTESIAN_POINT ( 'NONE',  ( -0.5000000000000002220, 0.000000000000000000, 0.000000000000000000 ) ) ;
#113 = AXIS2_PLACEMENT_3D ( 'NONE', #319, #241, #28 ) ;
#114 = CARTESIAN_POINT ( 'NONE',  ( -1.614212418857619014, 0.000000000000000000, 0.000000000000000000 ) ) ;
#115 = CARTESIAN_POINT ( 'NONE',  ( -3.000000000000000000, 0.000000000000000000, 5.000000000000000000 ) ) ;
#116 = EDGE_CURVE ( 'NONE', #189, #45, #213, .T. ) ;
#117 = ORIENTED_EDGE ( 'NONE', *, *, #116, .T. ) ;
#118 = CC_DESIGN_PERSON_AND_ORGANIZATION_ASSIGNMENT ( #187, #132, ( #82 ) ) ;
#119 = CARTESIAN_POINT ( 'NONE',  ( 0.5000000000000004441, 6.123233995736766282E-16, -5.000000000000000000 ) ) ;
#120 = DIRECTION ( 'NONE',  ( 0.000000000000000000, 0.000000000000000000, -1.000000000000000000 ) ) ;
#121 = EDGE_CURVE ( 'NONE', #128, #250, #58, .T. ) ;
#122 = DIRECTION ( 'NONE',  ( 0.000000000000000000, 0.000000000000000000, 1.000000000000000000 ) ) ;
#123 = VERTEX_POINT ( 'NONE', #247 ) ;
#124 = CARTESIAN_POINT ( 'NONE',  ( -3.000000000000000000, 5.000000000000000000, 0.000000000000000000 ) ) ;
#125 = ORIENTED_EDGE ( 'NONE', *, *, #97, .T. ) ;
#126 = CC_DESIGN_SECURITY_CLASSIFICATION ( #82, ( #65 ) ) ;
#127 = DIRECTION ( 'NONE',  ( -1.000000000000000000, -0.000000000000000000, -0.000000000000000000 ) ) ;
#128 = VERTEX_POINT ( 'NONE', #119 ) ;
#129 = DATE_AND_TIME ( #181, #165 ) ;
#130 = MECHANICAL_CONTEXT ( 'NONE', #29, 'mechanical' ) ;
#131 = APPROVAL ( #157, 'UNSPECIFIED' ) ;
#132 = PERSON_AND_ORGANIZATION_ROLE ( 'classification_officer' ) ;
#133 = AXIS2_PLACEMENT_3D ( 'NONE', #288, #163, #60 ) ;
#134 = PERSON_AND_ORGANIZATION_ROLE ( 'creator' ) ;
#135 = EDGE_LOOP ( 'NONE', ( #21, #156 ) ) ;
#136 = APPLICATION_CONTEXT ( 'configuration controlled 3d designs of mechanical parts and assemblies' ) ;
#137 = APPROVAL_DATE_TIME ( #107, #131 ) ;
#138 = DIRECTION ( 'NONE',  ( 0.000000000000000000, 0.000000000000000000, -1.000000000000000000 ) ) ;
#139 = EDGE_CURVE ( 'NONE', #180, #74, #267, .T. ) ;
#140 = DIRECTION ( 'NONE',  ( 0.000000000000000000, 0.000000000000000000, 1.000000000000000000 ) ) ;
#141 = CIRCLE ( 'NONE', #331, 5.000000000000000000 ) ;
#142 = ORIENTED_EDGE ( 'NONE', *, *, #90, .F. ) ;
#143 = LINE ( 'NONE', #17, #225 ) ;
#144 = AXIS2_PLACEMENT_3D ( 'NONE', #199, #150, #14 ) ;
#145 = CARTESIAN_POINT ( 'NONE',  ( -3.000000000000000000, 0.000000000000000000, 0.000000000000000000 ) ) ;
#146 = DIRECTION ( 'NONE',  ( 0.000000000000000000, 0.000000000000000000, 1.000000000000000000 ) ) ;
#147 = ADVANCED_FACE ( 'NONE', ( #194 ), #329, .F. ) ;
#148 = DIRECTION ( 'NONE',  ( 0.000000000000000000, 0.000000000000000000, 1.000000000000000000 ) ) ;
#149 = ORIENTED_EDGE ( 'NONE', *, *, #176, .F. ) ;
#150 = DIRECTION ( 'NONE',  ( -1.000000000000000000, -0.000000000000000000, -0.000000000000000000 ) ) ;
#151 = AXIS2_PLACEMENT_3D ( 'NONE', #112, #161, #138 ) ;
#152 = EDGE_CURVE ( 'NONE', #123, #128, #269, .T. ) ;
#153 = AXIS2_PLACEMENT_3D ( 'NONE', #221, #43, #146 ) ;
#154 = ADVANCED_FACE ( 'NONE', ( #96 ), #69, .F. ) ;
#155 = APPROVAL_DATE_TIME ( #129, #218 ) ;
#156 = ORIENTED_EDGE ( 'NONE', *, *, #121, .F. ) ;
#157 = APPROVAL_STATUS ( 'not_yet_approved' ) ;
#158 = CYLINDRICAL_SURFACE ( 'NONE', #34, 12.69999999999999929 ) ;
#159 = CALENDAR_DATE ( 2021, 5, 1 ) ;
#160 = UNCERTAINTY_MEASURE_WITH_UNIT (LENGTH_MEASURE( 1.000000000000000082E-05 ), #73, 'distance_accuracy_value', 'NONE');
#161 = DIRECTION ( 'NONE',  ( 1.000000000000000000, 0.000000000000000000, 0.000000000000000000 ) ) ;
#162 = LOCAL_TIME ( 10, 43, 51.00000000000000000, #238 ) ;
#163 = DIRECTION ( 'NONE',  ( -1.000000000000000000, -0.000000000000000000, -0.000000000000000000 ) ) ;
#164 = ORIENTED_EDGE ( 'NONE', *, *, #152, .F. ) ;
#165 = LOCAL_TIME ( 10, 43, 51.00000000000000000, #54 ) ;
#166 = CYLINDRICAL_SURFACE ( 'NONE', #204, 5.000000000000000888 ) ;
#167 = CARTESIAN_POINT ( 'NONE',  ( -3.000000000000000000, 6.123233995736766282E-16, -5.000000000000000000 ) ) ;
#168 = ORIENTED_EDGE ( 'NONE', *, *, #35, .F. ) ;
#169 = DIRECTION ( 'NONE',  ( -1.000000000000000000, -0.000000000000000000, -0.000000000000000000 ) ) ;
#170 = ORIENTED_EDGE ( 'NONE', *, *, #212, .T. ) ;
#171 = DIRECTION ( 'NONE',  ( 1.000000000000000000, 0.000000000000000000, 0.000000000000000000 ) ) ;
#172 = ADVANCED_FACE ( 'NONE', ( #39 ), #249, .F. ) ;
#173 = EDGE_LOOP ( 'NONE', ( #200, #202, #268, #72 ) ) ;
#174 = DIRECTION ( 'NONE',  ( -1.000000000000000000, 0.000000000000000000, -0.000000000000000000 ) ) ;
#175 = ADVANCED_FACE ( 'NONE', ( #274, #16 ), #224, .F. ) ;
#176 = EDGE_CURVE ( 'NONE', #123, #315, #215, .T. ) ;
#177 = DIRECTION ( 'NONE',  ( -1.000000000000000000, -0.000000000000000000, -0.000000000000000000 ) ) ;
#178 = CC_DESIGN_PERSON_AND_ORGANIZATION_ASSIGNMENT ( #254, #231, ( #42 ) ) ;
#179 = PERSON_AND_ORGANIZATION ( #38, #217 ) ;
#180 = VERTEX_POINT ( 'NONE', #167 ) ;
#181 = CALENDAR_DATE ( 2021, 5, 1 ) ;
#182 = ORIENTED_EDGE ( 'NONE', *, *, #210, .F. ) ;
#183 = CIRCLE ( 'NONE', #36, 5.000000000000000000 ) ;
#184 = APPROVAL_PERSON_ORGANIZATION ( #203, #218, #5 ) ;
#185 = DATE_TIME_ROLE ( 'classification_date' ) ;
#186 = DIRECTION ( 'NONE',  ( -1.000000000000000000, -0.000000000000000000, -0.000000000000000000 ) ) ;
#187 = PERSON_AND_ORGANIZATION ( #38, #217 ) ;
#188 = CYLINDRICAL_SURFACE ( 'NONE', #309, 5.000000000000000888 ) ;
#189 = VERTEX_POINT ( 'NONE', #252 ) ;
#190 = CARTESIAN_POINT ( 'NONE',  ( -1.614212418857619014, 6.123233995736767268E-16, -5.000000000000000888 ) ) ;
#191 = ORIENTED_EDGE ( 'NONE', *, *, #176, .T. ) ;
#192 = AXIS2_PLACEMENT_3D ( 'NONE', #321, #219, #211 ) ;
#193 = FACE_OUTER_BOUND ( 'NONE', #264, .T. ) ;
#194 = FACE_OUTER_BOUND ( 'NONE', #334, .T. ) ;
#195 = CARTESIAN_POINT ( 'NONE',  ( 0.5000000000000002220, 5.000000000000000000, 0.000000000000000000 ) ) ;
#196 = DIRECTION ( 'NONE',  ( 0.000000000000000000, 0.000000000000000000, 1.000000000000000000 ) ) ;
#197 = LOCAL_TIME ( 10, 43, 51.00000000000000000, #30 ) ;
#198 = VERTEX_POINT ( 'NONE', #226 ) ;
#199 = CARTESIAN_POINT ( 'NONE',  ( -1.614212418857619014, 0.000000000000000000, 0.000000000000000000 ) ) ;
#200 = ORIENTED_EDGE ( 'NONE', *, *, #116, .F. ) ;
#201 =( NAMED_UNIT ( * ) SI_UNIT ( $, .STERADIAN. ) SOLID_ANGLE_UNIT ( ) );
#202 = ORIENTED_EDGE ( 'NONE', *, *, #303, .T. ) ;
#203 = PERSON_AND_ORGANIZATION ( #38, #217 ) ;
#204 = AXIS2_PLACEMENT_3D ( 'NONE', #66, #95, #206 ) ;
#205 = CARTESIAN_POINT ( 'NONE',  ( 3.000000000000000000, 0.000000000000000000, 0.000000000000000000 ) ) ;
#206 = DIRECTION ( 'NONE',  ( 0.000000000000000000, 0.000000000000000000, 1.000000000000000000 ) ) ;
#207 = DATE_AND_TIME ( #76, #53 ) ;
#208 = ORIENTED_EDGE ( 'NONE', *, *, #106, .F. ) ;
#209 = SHAPE_DEFINITION_REPRESENTATION ( #299, #292 ) ;
#210 = EDGE_CURVE ( 'NONE', #198, #239, #143, .T. ) ;
#211 = DIRECTION ( 'NONE',  ( 0.000000000000000000, 0.000000000000000000, 1.000000000000000000 ) ) ;
#212 = EDGE_CURVE ( 'NONE', #45, #239, #79, .T. ) ;
#213 = LINE ( 'NONE', #265, #88 ) ;
#214 = CC_DESIGN_APPROVAL ( #218, ( #42 ) ) ;
#215 = CIRCLE ( 'NONE', #153, 5.000000000000001776 ) ;
#216 = FACE_OUTER_BOUND ( 'NONE', #308, .T. ) ;
#217 = ORGANIZATION ( 'UNSPECIFIED', 'UNSPECIFIED', '' ) ;
#218 = APPROVAL ( #232, 'UNSPECIFIED' ) ;
#219 = DIRECTION ( 'NONE',  ( -1.000000000000000000, -0.000000000000000000, -0.000000000000000000 ) ) ;
#220 = CARTESIAN_POINT ( 'NONE',  ( -3.000000000000000000, 0.000000000000000000, 12.69999999999999929 ) ) ;
#221 = CARTESIAN_POINT ( 'NONE',  ( 3.000000000000000000, 0.000000000000000000, 0.000000000000000000 ) ) ;
#222 = DIRECTION ( 'NONE',  ( -1.000000000000000000, -0.000000000000000000, -0.000000000000000000 ) ) ;
#223 = CC_DESIGN_DATE_AND_TIME_ASSIGNMENT ( #59, #185, ( #82 ) ) ;
#224 = PLANE ( 'NONE',  #24 ) ;
#225 = VECTOR ( 'NONE', #71, 1000.000000000000000 ) ;
#226 = CARTESIAN_POINT ( 'NONE',  ( 3.000000000000000000, 0.000000000000000000, 12.69999999999999929 ) ) ;
#227 = ORIENTED_EDGE ( 'NONE', *, *, #139, .T. ) ;
#228 = DIRECTION ( 'NONE',  ( 0.000000000000000000, 0.000000000000000000, 1.000000000000000000 ) ) ;
#229 =( NAMED_UNIT ( * ) PLANE_ANGLE_UNIT ( ) SI_UNIT ( $, .RADIAN. ) );
#230 = PRODUCT ( 'QM-CAQWP-10-550-750-M', 'QM-CAQWP-10-550-750-M', '', ( #130 ) ) ;
#231 = PERSON_AND_ORGANIZATION_ROLE ( 'creator' ) ;
#232 = APPROVAL_STATUS ( 'not_yet_approved' ) ;
#233 = APPROVAL ( #313, 'UNSPECIFIED' ) ;
#234 = APPLICATION_PROTOCOL_DEFINITION ( 'international standard', 'config_control_design', 1994, #136 ) ;
#235 = EDGE_LOOP ( 'NONE', ( #248, #170 ) ) ;
#236 = PERSON_AND_ORGANIZATION ( #38, #217 ) ;
#237 = CC_DESIGN_APPROVAL ( #131, ( #82 ) ) ;
#238 = COORDINATED_UNIVERSAL_TIME_OFFSET ( 8, 0, .AHEAD. ) ;
#239 = VERTEX_POINT ( 'NONE', #220 ) ;
#240 = CALENDAR_DATE ( 2021, 5, 1 ) ;
#241 = DIRECTION ( 'NONE',  ( -1.000000000000000000, -0.000000000000000000, -0.000000000000000000 ) ) ;
#242 = CARTESIAN_POINT ( 'NONE',  ( -0.5000000000000002220, 6.123233995736767268E-16, -5.000000000000000888 ) ) ;
#243 = ORIENTED_EDGE ( 'NONE', *, *, #335, .T. ) ;
#244 = LINE ( 'NONE', #93, #280 ) ;
#245 = DIRECTION ( 'NONE',  ( -0.000000000000000000, 0.000000000000000000, 1.000000000000000000 ) ) ;
#246 = APPROVAL_PERSON_ORGANIZATION ( #179, #233, #6 ) ;
#247 = CARTESIAN_POINT ( 'NONE',  ( 3.000000000000000000, 6.123233995736768255E-16, -5.000000000000001776 ) ) ;
#248 = ORIENTED_EDGE ( 'NONE', *, *, #75, .T. ) ;
#249 = PLANE ( 'NONE',  #289 ) ;
#250 = VERTEX_POINT ( 'NONE', #304 ) ;
#251 = CLOSED_SHELL ( 'NONE', ( #3, #94, #293, #154, #25, #147, #175, #40, #320, #172 ) ) ;
#252 = CARTESIAN_POINT ( 'NONE',  ( 3.000000000000000000, 1.555301434917138433E-15, -12.69999999999999929 ) ) ;
#253 = EDGE_LOOP ( 'NONE', ( #125, #117, #275, #182 ) ) ;
#254 = PERSON_AND_ORGANIZATION ( #38, #217 ) ;
#255 = APPLICATION_PROTOCOL_DEFINITION ( 'international standard', 'config_control_design', 1994, #29 ) ;
#256 = DIRECTION ( 'NONE',  ( 0.000000000000000000, 0.000000000000000000, 1.000000000000000000 ) ) ;
#257 = CC_DESIGN_PERSON_AND_ORGANIZATION_ASSIGNMENT ( #236, #318, ( #65 ) ) ;
#258 = AXIS2_PLACEMENT_3D ( 'NONE', #311, #177, #256 ) ;
#259 = VERTEX_POINT ( 'NONE', #276 ) ;
#260 = FACE_OUTER_BOUND ( 'NONE', #284, .T. ) ;
#261 = CARTESIAN_POINT ( 'NONE',  ( -1.614212418857619014, 0.000000000000000000, 0.000000000000000000 ) ) ;
#262 = VECTOR ( 'NONE', #222, 1000.000000000000000 ) ;
#263 = COORDINATED_UNIVERSAL_TIME_OFFSET ( 8, 0, .AHEAD. ) ;
#264 = EDGE_LOOP ( 'NONE', ( #149, #316, #55, #70 ) ) ;
#265 = CARTESIAN_POINT ( 'NONE',  ( -1.614212418857619014, 1.555301434917138433E-15, -12.69999999999999929 ) ) ;
#266 = EDGE_LOOP ( 'NONE', ( #243, #191 ) ) ;
#267 = CIRCLE ( 'NONE', #272, 5.000000000000000000 ) ;
#268 = ORIENTED_EDGE ( 'NONE', *, *, #210, .T. ) ;
#269 = LINE ( 'NONE', #19, #262 ) ;
#270 = EDGE_CURVE ( 'NONE', #74, #180, #141, .T. ) ;
#271 = DIRECTION ( 'NONE',  ( -1.000000000000000000, -0.000000000000000000, -0.000000000000000000 ) ) ;
#272 = AXIS2_PLACEMENT_3D ( 'NONE', #145, #41, #196 ) ;
#273 = AXIS2_PLACEMENT_3D ( 'NONE', #205, #127, #22 ) ;
#274 = FACE_BOUND ( 'NONE', #18, .T. ) ;
#275 = ORIENTED_EDGE ( 'NONE', *, *, #75, .F. ) ;
#276 = CARTESIAN_POINT ( 'NONE',  ( -0.5000000000000002220, 0.000000000000000000, 5.000000000000000888 ) ) ;
#277 = EDGE_CURVE ( 'NONE', #250, #128, #183, .T. ) ;
#278 = DIRECTION ( 'NONE',  ( 0.000000000000000000, 0.000000000000000000, -1.000000000000000000 ) ) ;
#279 = ORIENTED_EDGE ( 'NONE', *, *, #296, .F. ) ;
#280 = VECTOR ( 'NONE', #324, 1000.000000000000000 ) ;
#281 = CARTESIAN_POINT ( 'NONE',  ( 0.000000000000000000, 0.000000000000000000, 0.000000000000000000 ) ) ;
#282 =( GEOMETRIC_REPRESENTATION_CONTEXT ( 3 ) GLOBAL_UNCERTAINTY_ASSIGNED_CONTEXT ( ( #160 ) ) GLOBAL_UNIT_ASSIGNED_CONTEXT ( ( #73, #229, #201 ) ) REPRESENTATION_CONTEXT ( 'NONE', 'WORKASPACE' ) );
#283 = FACE_BOUND ( 'NONE', #266, .T. ) ;
#284 = EDGE_LOOP ( 'NONE', ( #37, #332 ) ) ;
#285 = CALENDAR_DATE ( 2021, 5, 1 ) ;
#286 = DIRECTION ( 'NONE',  ( -1.000000000000000000, -0.000000000000000000, -0.000000000000000000 ) ) ;
#287 = SECURITY_CLASSIFICATION_LEVEL ( 'unclassified' ) ;
#288 = CARTESIAN_POINT ( 'NONE',  ( 3.000000000000000000, 0.000000000000000000, 0.000000000000000000 ) ) ;
#289 = AXIS2_PLACEMENT_3D ( 'NONE', #46, #171, #278 ) ;
#290 = EDGE_CURVE ( 'NONE', #315, #250, #244, .T. ) ;
#291 = FACE_OUTER_BOUND ( 'NONE', #173, .T. ) ;
#292 = ADVANCED_BREP_SHAPE_REPRESENTATION ( 'QM-CAQWP-10-550-750-M', ( #67, #330 ), #282 ) ;
#293 = ADVANCED_FACE ( 'NONE', ( #193 ), #166, .F. ) ;
#294 = DIRECTION ( 'NONE',  ( -1.000000000000000000, -0.000000000000000000, -0.000000000000000000 ) ) ;
#295 = CYLINDRICAL_SURFACE ( 'NONE', #328, 5.000000000000000888 ) ;
#296 = EDGE_CURVE ( 'NONE', #259, #20, #310, .T. ) ;
#297 = VECTOR ( 'NONE', #294, 1000.000000000000000 ) ;
#298 = CARTESIAN_POINT ( 'NONE',  ( -3.000000000000000000, 0.000000000000000000, 0.000000000000000000 ) ) ;
#299 = PRODUCT_DEFINITION_SHAPE ( 'NONE', 'NONE',  #42 ) ;
#300 = CARTESIAN_POINT ( 'NONE',  ( 0.5000000000000004441, 0.000000000000000000, 0.000000000000000000 ) ) ;
#301 = DIRECTION ( 'NONE',  ( -1.000000000000000000, 0.000000000000000000, -0.000000000000000000 ) ) ;
#302 = CIRCLE ( 'NONE', #151, 5.000000000000000888 ) ;
#303 = EDGE_CURVE ( 'NONE', #189, #198, #1, .T. ) ;
#304 = CARTESIAN_POINT ( 'NONE',  ( 0.5000000000000004441, 0.000000000000000000, 5.000000000000000000 ) ) ;
#305 = DIRECTION ( 'NONE',  ( -1.000000000000000000, -0.000000000000000000, -0.000000000000000000 ) ) ;
#306 = ORIENTED_EDGE ( 'NONE', *, *, #270, .T. ) ;
#307 = DIRECTION ( 'NONE',  ( 1.000000000000000000, 0.000000000000000000, 0.000000000000000000 ) ) ;
#308 = EDGE_LOOP ( 'NONE', ( #164, #27, #81, #99 ) ) ;
#309 = AXIS2_PLACEMENT_3D ( 'NONE', #114, #92, #64 ) ;
#310 = CIRCLE ( 'NONE', #101, 5.000000000000000888 ) ;
#311 = CARTESIAN_POINT ( 'NONE',  ( 3.000000000000000000, 0.000000000000000000, 0.000000000000000000 ) ) ;
#312 = CARTESIAN_POINT ( 'NONE',  ( -0.5000000000000002220, 0.000000000000000000, 0.000000000000000000 ) ) ;
#313 = APPROVAL_STATUS ( 'not_yet_approved' ) ;
#314 = AXIS2_PLACEMENT_3D ( 'NONE', #326, #305, #98 ) ;
#315 = VERTEX_POINT ( 'NONE', #80 ) ;
#316 = ORIENTED_EDGE ( 'NONE', *, *, #152, .T. ) ;
#317 = FACE_OUTER_BOUND ( 'NONE', #253, .T. ) ;
#318 = PERSON_AND_ORGANIZATION_ROLE ( 'design_supplier' ) ;
#319 = CARTESIAN_POINT ( 'NONE',  ( -3.000000000000000000, 0.000000000000000000, 0.000000000000000000 ) ) ;
#320 = ADVANCED_FACE ( 'NONE', ( #260, #283 ), #333, .F. ) ;
#321 = CARTESIAN_POINT ( 'NONE',  ( -1.614212418857619014, 0.000000000000000000, 0.000000000000000000 ) ) ;
#322 = CARTESIAN_POINT ( 'NONE',  ( -1.614212418857619014, 0.000000000000000000, 5.000000000000000888 ) ) ;
#323 = DIRECTION ( 'NONE',  ( 0.000000000000000000, 0.000000000000000000, 1.000000000000000000 ) ) ;
#324 = DIRECTION ( 'NONE',  ( -1.000000000000000000, -0.000000000000000000, -0.000000000000000000 ) ) ;
#325 = DIRECTION ( 'NONE',  ( 1.000000000000000000, 0.000000000000000000, 0.000000000000000000 ) ) ;
#326 = CARTESIAN_POINT ( 'NONE',  ( -3.000000000000000000, 0.000000000000000000, 0.000000000000000000 ) ) ;
#327 = PRODUCT_RELATED_PRODUCT_CATEGORY ( 'detail', '', ( #230 ) ) ;
#328 = AXIS2_PLACEMENT_3D ( 'NONE', #9, #186, #110 ) ;
#329 = CYLINDRICAL_SURFACE ( 'NONE', #144, 5.000000000000000888 ) ;
#330 = AXIS2_PLACEMENT_3D ( 'NONE', #281, #228, #307 ) ;
#331 = AXIS2_PLACEMENT_3D ( 'NONE', #298, #44, #148 ) ;
#332 = ORIENTED_EDGE ( 'NONE', *, *, #303, .F. ) ;
#333 = PLANE ( 'NONE',  #62 ) ;
#334 = EDGE_LOOP ( 'NONE', ( #168, #57, #84, #306 ) ) ;
#335 = EDGE_CURVE ( 'NONE', #315, #123, #103, .T. ) ;
ENDSEC;
END-ISO-10303-21;
